ISO-10303-21;
HEADER;
FILE_DESCRIPTION (( 'STEP AP203' ),
    '1' );
FILE_NAME ('462548843_c_1.STEP',
    '2022-12-05T14:04:45',
    ( '' ),
    ( '' ),
    'SwSTEP 2.0',
    'SolidWorks 2014',
    '' );
FILE_SCHEMA (( 'CONFIG_CONTROL_DESIGN' ));
ENDSEC;

DATA;
#1 = EDGE_LOOP ( 'NONE', ( #192, #107, #60, #118, #323, #239, #208, #181 ) ) ;
#2 = APPLICATION_PROTOCOL_DEFINITION ( 'international standard', 'config_control_design', 1994, #50 ) ;
#3 = VECTOR ( 'NONE', #361, 1000.000000000000000 ) ;
#4 = VERTEX_POINT ( 'NONE', #154 ) ;
#5 = ORIENTED_EDGE ( 'NONE', *, *, #33, .T. ) ;
#6 = EDGE_CURVE ( 'NONE', #184, #262, #106, .T. ) ;
#7 = LINE ( 'NONE', #27, #142 ) ;
#8 = CARTESIAN_POINT ( 'NONE',  ( -9.000000000000001800, 2.204364238465240200E-015, 18.00000000000000400 ) ) ;
#9 = DATE_AND_TIME ( #205, #171 ) ;
#10 = PLANE ( 'NONE',  #252 ) ;
#11 = LINE ( 'NONE', #288, #96 ) ;
#12 = AXIS2_PLACEMENT_3D ( 'NONE', #67, #304, #251 ) ;
#13 = VERTEX_POINT ( 'NONE', #186 ) ;
#14 = ADVANCED_FACE ( 'NONE', ( #144 ), #10, .F. ) ;
#15 = CARTESIAN_POINT ( 'NONE',  ( -9.000000000000001800, 2.388061258337337800E-015, 20.00000000000000000 ) ) ;
#16 = CALENDAR_DATE ( 2022, 5, 12 ) ;
#17 = PERSON_AND_ORGANIZATION ( #114, #26 ) ;
#18 = VECTOR ( 'NONE', #162, 1000.000000000000000 ) ;
#19 = DIRECTION ( 'NONE',  ( 0.0000000000000000000, 0.0000000000000000000, -1.000000000000000000 ) ) ;
#20 = EDGE_CURVE ( 'NONE', #184, #153, #56, .T. ) ;
#21 = VECTOR ( 'NONE', #76, 1000.000000000000000 ) ;
#22 = ORIENTED_EDGE ( 'NONE', *, *, #58, .T. ) ;
#23 = MECHANICAL_CONTEXT ( 'NONE', #202, 'mechanical' ) ;
#24 = PLANE ( 'NONE',  #61 ) ;
#25 = CARTESIAN_POINT ( 'NONE',  ( -9.000000000000001800, 2.204364238465240200E-015, 0.0000000000000000000 ) ) ;
#26 = ORGANIZATION ( 'UNSPECIFIED', 'UNSPECIFIED', '' ) ;
#27 = CARTESIAN_POINT ( 'NONE',  ( 9.000000000000001800, 2.204364238465240200E-015, 18.00000000000000400 ) ) ;
#28 = ORIENTED_EDGE ( 'NONE', *, *, #209, .F. ) ;
#29 = ORIENTED_EDGE ( 'NONE', *, *, #131, .F. ) ;
#30 = CARTESIAN_POINT ( 'NONE',  ( -9.000000000000001800, -18.00000000000000700, 3.469446951953614200E-015 ) ) ;
#31 = LINE ( 'NONE', #334, #46 ) ;
#32 = APPROVAL_STATUS ( 'not_yet_approved' ) ;
#33 = EDGE_CURVE ( 'NONE', #343, #4, #31, .T. ) ;
#34 = ORIENTED_EDGE ( 'NONE', *, *, #300, .F. ) ;
#35 = ADVANCED_FACE ( 'NONE', ( #86 ), #121, .T. ) ;
#36 = AXIS2_PLACEMENT_3D ( 'NONE', #314, #308, #156 ) ;
#37 = VECTOR ( 'NONE', #125, 1000.000000000000000 ) ;
#38 = VERTEX_POINT ( 'NONE', #329 ) ;
#39 = DIRECTION ( 'NONE',  ( 0.0000000000000000000, -0.7071067811865480200, -0.7071067811865470200 ) ) ;
#40 = CARTESIAN_POINT ( 'NONE',  ( -9.000000000000001800, -20.00000000000000000, 2.449293598294710100E-015 ) ) ;
#41 = DIRECTION ( 'NONE',  ( -1.000000000000000000, -0.0000000000000000000, -0.0000000000000000000 ) ) ;
#42 = EDGE_LOOP ( 'NONE', ( #147, #130, #253, #28 ) ) ;
#43 = CARTESIAN_POINT ( 'NONE',  ( 9.000000000000001800, -18.00000000000000400, 0.0000000000000000000 ) ) ;
#44 = DIRECTION ( 'NONE',  ( 0.0000000000000000000, 1.000000000000000000, -1.224646799147350000E-016 ) ) ;
#45 = CARTESIAN_POINT ( 'NONE',  ( 9.000000000000001800, 0.0000000000000000000, 20.00000000000000000 ) ) ;
#46 = VECTOR ( 'NONE', #280, 1000.000000000000000 ) ;
#47 = CARTESIAN_POINT ( 'NONE',  ( 9.000000000000001800, -20.00000000000000400, 2.959370275124162100E-015 ) ) ;
#48 = ORIENTED_EDGE ( 'NONE', *, *, #131, .T. ) ;
#49 = CARTESIAN_POINT ( 'NONE',  ( 9.000000000000001800, -4.742640687118997900, 19.99999999999999600 ) ) ;
#50 = APPLICATION_CONTEXT ( 'configuration controlled 3d designs of mechanical parts and assemblies' ) ;
#51 = EDGE_CURVE ( 'NONE', #273, #155, #246, .T. ) ;
#52 = DIRECTION ( 'NONE',  ( 0.0000000000000000000, 0.0000000000000000000, -1.000000000000000000 ) ) ;
#53 = ORIENTED_EDGE ( 'NONE', *, *, #90, .F. ) ;
#54 = CARTESIAN_POINT ( 'NONE',  ( 9.000000000000001800, -20.00000000000000400, 4.742640687118999700 ) ) ;
#55 = DIRECTION ( 'NONE',  ( 1.000000000000000000, 0.0000000000000000000, 0.0000000000000000000 ) ) ;
#56 = LINE ( 'NONE', #95, #37 ) ;
#57 = ORIENTED_EDGE ( 'NONE', *, *, #117, .F. ) ;
#58 = EDGE_CURVE ( 'NONE', #247, #38, #116, .T. ) ;
#59 = LINE ( 'NONE', #103, #3 ) ;
#60 = ORIENTED_EDGE ( 'NONE', *, *, #190, .T. ) ;
#61 = AXIS2_PLACEMENT_3D ( 'NONE', #320, #55, #52 ) ;
#62 = APPROVAL_PERSON_ORGANIZATION ( #122, #182, #87 ) ;
#63 = COORDINATED_UNIVERSAL_TIME_OFFSET ( 8, 0, .BEHIND. ) ;
#64 = FACE_OUTER_BOUND ( 'NONE', #42, .T. ) ;
#65 = ORIENTED_EDGE ( 'NONE', *, *, #117, .T. ) ;
#66 = DESIGN_CONTEXT ( 'detailed design', #50, 'design' ) ;
#67 = CARTESIAN_POINT ( 'NONE',  ( -9.000000000000001800, -20.00000000000000000, 20.00000000000000000 ) ) ;
#68 = COORDINATED_UNIVERSAL_TIME_OFFSET ( 8, 0, .BEHIND. ) ;
#69 = LINE ( 'NONE', #25, #85 ) ;
#70 = ORIENTED_EDGE ( 'NONE', *, *, #93, .F. ) ;
#71 = ADVANCED_FACE ( 'NONE', ( #214 ), #243, .T. ) ;
#72 = CARTESIAN_POINT ( 'NONE',  ( 9.000000000000001800, -18.00000000000000400, 2.500000000000000000 ) ) ;
#73 = LINE ( 'NONE', #215, #137 ) ;
#74 = ORIENTED_EDGE ( 'NONE', *, *, #309, .F. ) ;
#75 = CARTESIAN_POINT ( 'NONE',  ( -9.000000000000001800, 0.0000000000000000000, 0.0000000000000000000 ) ) ;
#76 = DIRECTION ( 'NONE',  ( -0.0000000000000000000, 0.7071067811865480200, 0.7071067811865470200 ) ) ;
#77 = EDGE_CURVE ( 'NONE', #273, #343, #79, .T. ) ;
#78 = CARTESIAN_POINT ( 'NONE',  ( 9.000000000000001800, 2.388061258337337800E-015, 20.00000000000000000 ) ) ;
#79 = LINE ( 'NONE', #8, #237 ) ;
#80 = CARTESIAN_POINT ( 'NONE',  ( 9.000000000000001800, 2.204364238465237800E-015, 18.00000000000000400 ) ) ;
#81 = EDGE_LOOP ( 'NONE', ( #70, #183, #312, #332 ) ) ;
#82 = ORIENTED_EDGE ( 'NONE', *, *, #120, .T. ) ;
#83 = DIRECTION ( 'NONE',  ( -0.0000000000000000000, 1.224646799147350000E-016, 1.000000000000000000 ) ) ;
#84 = DATE_AND_TIME ( #16, #236 ) ;
#85 = VECTOR ( 'NONE', #264, 1000.000000000000000 ) ;
#86 = FACE_OUTER_BOUND ( 'NONE', #266, .T. ) ;
#87 = APPROVAL_ROLE ( '' ) ;
#88 = VECTOR ( 'NONE', #161, 1000.000000000000000 ) ;
#89 = EDGE_LOOP ( 'NONE', ( #22, #366, #180, #340, #53, #254, #5, #82 ) ) ;
#90 = EDGE_CURVE ( 'NONE', #211, #184, #350, .T. ) ;
#91 = APPROVAL_STATUS ( 'not_yet_approved' ) ;
#92 = APPROVAL_DATE_TIME ( #172, #109 ) ;
#93 = EDGE_CURVE ( 'NONE', #13, #249, #311, .T. ) ;
#94 = PERSON_AND_ORGANIZATION ( #114, #26 ) ;
#95 = CARTESIAN_POINT ( 'NONE',  ( 9.000000000000001800, -4.742640687118989900, 19.99999999999998900 ) ) ;
#96 = VECTOR ( 'NONE', #291, 1000.000000000000000 ) ;
#97 = ORIENTED_EDGE ( 'NONE', *, *, #77, .T. ) ;
#98 = ORIENTED_EDGE ( 'NONE', *, *, #285, .T. ) ;
#99 = DIRECTION ( 'NONE',  ( 0.0000000000000000000, 1.000000000000000000, -1.224646799147350000E-016 ) ) ;
#100 = ADVANCED_FACE ( 'NONE', ( #187 ), #282, .T. ) ;
#101 = UNCERTAINTY_MEASURE_WITH_UNIT (LENGTH_MEASURE( 1.000000000000000100E-005 ), #319, 'distance_accuracy_value', 'NONE');
#102 = ORIENTED_EDGE ( 'NONE', *, *, #315, .T. ) ;
#103 = CARTESIAN_POINT ( 'NONE',  ( -8.000000000000000000, -2.499999999999990200, 17.99999999999999300 ) ) ;
#104 = APPROVAL ( #32, 'UNSPECIFIED' ) ;
#105 = PLANE ( 'NONE',  #36 ) ;
#106 = LINE ( 'NONE', #278, #152 ) ;
#107 = ORIENTED_EDGE ( 'NONE', *, *, #93, .T. ) ;
#108 = CARTESIAN_POINT ( 'NONE',  ( -9.000000000000001800, -20.00000000000000400, 4.742640687118999700 ) ) ;
#109 = APPROVAL ( #146, 'UNSPECIFIED' ) ;
#110 = CARTESIAN_POINT ( 'NONE',  ( -9.000000000000001800, -20.00000000000000000, 0.0000000000000000000 ) ) ;
#111 = EDGE_LOOP ( 'NONE', ( #57, #74, #354, #358 ) ) ;
#112 = CLOSED_SHELL ( 'NONE', ( #303, #250, #307, #14, #188, #100, #35, #71, #191, #221 ) ) ;
#113 = DIRECTION ( 'NONE',  ( 0.0000000000000000000, -0.7071067811865480200, -0.7071067811865470200 ) ) ;
#114 = PERSON ( 'UNSPECIFIED', 'UNSPECIFIED', 'UNSPECIFIED', ('UNSPECIFIED'), ('UNSPECIFIED'), ('UNSPECIFIED') ) ;
#115 = CALENDAR_DATE ( 2022, 5, 12 ) ;
#116 = LINE ( 'NONE', #244, #356 ) ;
#117 = EDGE_CURVE ( 'NONE', #327, #262, #210, .T. ) ;
#118 = ORIENTED_EDGE ( 'NONE', *, *, #300, .T. ) ;
#119 = SHAPE_DEFINITION_REPRESENTATION ( #218, #344 ) ;
#120 = EDGE_CURVE ( 'NONE', #4, #247, #73, .T. ) ;
#121 = PLANE ( 'NONE',  #260 ) ;
#122 = PERSON_AND_ORGANIZATION ( #114, #26 ) ;
#123 = LOCAL_TIME ( 6, 4, 45.00000000000000000, #276 ) ;
#124 = EDGE_LOOP ( 'NONE', ( #298, #271, #65, #98 ) ) ;
#125 = DIRECTION ( 'NONE',  ( 1.000000000000000000, -0.0000000000000000000, 0.0000000000000000000 ) ) ;
#126 = DIRECTION ( 'NONE',  ( 0.0000000000000000000, -1.000000000000000000, 1.224646799147350000E-016 ) ) ;
#127 = EDGE_CURVE ( 'NONE', #166, #13, #234, .T. ) ;
#128 = CARTESIAN_POINT ( 'NONE',  ( -9.000000000000001800, -18.00000000000000400, 20.00000000000000000 ) ) ;
#129 = EDGE_LOOP ( 'NONE', ( #199, #138, #238, #29 ) ) ;
#130 = ORIENTED_EDGE ( 'NONE', *, *, #90, .T. ) ;
#131 = EDGE_CURVE ( 'NONE', #201, #4, #59, .T. ) ;
#132 = CARTESIAN_POINT ( 'NONE',  ( -9.000000000000001800, 2.449293598294710100E-015, 20.00000000000000000 ) ) ;
#133 = APPROVAL_DATE_TIME ( #84, #182 ) ;
#134 = LINE ( 'NONE', #110, #149 ) ;
#135 = EDGE_LOOP ( 'NONE', ( #34, #48, #281, #159 ) ) ;
#136 = CARTESIAN_POINT ( 'NONE',  ( -9.000000000000001800, -20.00000000000000400, 2.959370275124162100E-015 ) ) ;
#137 = VECTOR ( 'NONE', #39, 1000.000000000000000 ) ;
#138 = ORIENTED_EDGE ( 'NONE', *, *, #362, .F. ) ;
#139 = DIRECTION ( 'NONE',  ( 0.0000000000000000000, 0.0000000000000000000, -1.000000000000000000 ) ) ;
#140 = DIRECTION ( 'NONE',  ( 0.0000000000000000000, 0.0000000000000000000, 1.000000000000000000 ) ) ;
#141 = EDGE_CURVE ( 'NONE', #166, #230, #258, .T. ) ;
#142 = VECTOR ( 'NONE', #341, 1000.000000000000000 ) ;
#143 = PERSON_AND_ORGANIZATION_ROLE ( 'design_supplier' ) ;
#144 = FACE_OUTER_BOUND ( 'NONE', #81, .T. ) ;
#145 = EDGE_CURVE ( 'NONE', #327, #166, #302, .T. ) ;
#146 = APPROVAL_STATUS ( 'not_yet_approved' ) ;
#147 = ORIENTED_EDGE ( 'NONE', *, *, #232, .F. ) ;
#148 = CC_DESIGN_APPROVAL ( #109, ( #326 ) ) ;
#149 = VECTOR ( 'NONE', #139, 1000.000000000000000 ) ;
#150 = CC_DESIGN_APPROVAL ( #182, ( #185 ) ) ;
#151 = AXIS2_PLACEMENT_3D ( 'NONE', #132, #194, #222 ) ;
#152 = VECTOR ( 'NONE', #189, 1000.000000000000100 ) ;
#153 = VERTEX_POINT ( 'NONE', #49 ) ;
#154 = CARTESIAN_POINT ( 'NONE',  ( -9.000000000000001800, -2.499999999999995600, 18.00000000000000000 ) ) ;
#155 = VERTEX_POINT ( 'NONE', #78 ) ;
#156 = DIRECTION ( 'NONE',  ( 0.0000000000000000000, 0.7071067811865480200, 0.7071067811865470200 ) ) ;
#157 = CARTESIAN_POINT ( 'NONE',  ( 9.000000000000001800, 0.0000000000000000000, 2.449293598294710100E-015 ) ) ;
#158 = PERSON_AND_ORGANIZATION ( #114, #26 ) ;
#159 = ORIENTED_EDGE ( 'NONE', *, *, #77, .F. ) ;
#160 = CC_DESIGN_PERSON_AND_ORGANIZATION_ASSIGNMENT ( #177, #143, ( #346 ) ) ;
#161 = DIRECTION ( 'NONE',  ( -0.0000000000000000000, 1.000000000000000000, 0.0000000000000000000 ) ) ;
#162 = DIRECTION ( 'NONE',  ( 0.0000000000000000000, -1.000000000000000000, -0.0000000000000000000 ) ) ;
#163 = PERSON_AND_ORGANIZATION ( #114, #26 ) ;
#164 = LINE ( 'NONE', #45, #18 ) ;
#165 = APPLICATION_PROTOCOL_DEFINITION ( 'international standard', 'config_control_design', 1994, #202 ) ;
#166 = VERTEX_POINT ( 'NONE', #47 ) ;
#167 = ORIENTED_EDGE ( 'NONE', *, *, #51, .F. ) ;
#168 = DIRECTION ( 'NONE',  ( 0.0000000000000000000, -0.7071067811865470200, 0.7071067811865480200 ) ) ;
#169 =( NAMED_UNIT ( * ) PLANE_ANGLE_UNIT ( ) SI_UNIT ( $, .RADIAN. ) );
#170 =( NAMED_UNIT ( * ) SI_UNIT ( $, .STERADIAN. ) SOLID_ANGLE_UNIT ( ) );
#171 = LOCAL_TIME ( 6, 4, 45.00000000000000000, #284 ) ;
#172 = DATE_AND_TIME ( #310, #348 ) ;
#173 = LINE ( 'NONE', #30, #316 ) ;
#174 = CC_DESIGN_SECURITY_CLASSIFICATION ( #185, ( #346 ) ) ;
#175 = APPROVAL_ROLE ( '' ) ;
#176 = AXIS2_PLACEMENT_3D ( 'NONE', #293, #83, #321 ) ;
#177 = PERSON_AND_ORGANIZATION ( #114, #26 ) ;
#178 = PERSON_AND_ORGANIZATION_ROLE ( 'creator' ) ;
#179 = VECTOR ( 'NONE', #19, 1000.000000000000000 ) ;
#180 = ORIENTED_EDGE ( 'NONE', *, *, #285, .F. ) ;
#181 = ORIENTED_EDGE ( 'NONE', *, *, #145, .T. ) ;
#182 = APPROVAL ( #91, 'UNSPECIFIED' ) ;
#183 = ORIENTED_EDGE ( 'NONE', *, *, #268, .F. ) ;
#184 = VERTEX_POINT ( 'NONE', #337 ) ;
#185 = SECURITY_CLASSIFICATION ( '', '', #353 ) ;
#186 = CARTESIAN_POINT ( 'NONE',  ( 9.000000000000001800, -18.00000000000000400, 2.581867256794701100E-015 ) ) ;
#187 = FACE_OUTER_BOUND ( 'NONE', #220, .T. ) ;
#188 = ADVANCED_FACE ( 'NONE', ( #229 ), #283, .F. ) ;
#189 = DIRECTION ( 'NONE',  ( 0.0000000000000000000, -0.7071067811865474600, -0.7071067811865474600 ) ) ;
#190 = EDGE_CURVE ( 'NONE', #249, #201, #357, .T. ) ;
#191 = ADVANCED_FACE ( 'NONE', ( #324 ), #105, .F. ) ;
#192 = ORIENTED_EDGE ( 'NONE', *, *, #127, .T. ) ;
#193 = DIRECTION ( 'NONE',  ( -1.000000000000000000, 0.0000000000000000000, -0.0000000000000000000 ) ) ;
#194 = DIRECTION ( 'NONE',  ( -0.0000000000000000000, 1.224646799147350000E-016, 1.000000000000000000 ) ) ;
#195 = CARTESIAN_POINT ( 'NONE',  ( -9.000000000000001800, -20.00000000000000400, 4.742640687118999700 ) ) ;
#196 = DIRECTION ( 'NONE',  ( 0.0000000000000000000, 0.0000000000000000000, -1.000000000000000000 ) ) ;
#197 = VECTOR ( 'NONE', #290, 1000.000000000000000 ) ;
#198 = VECTOR ( 'NONE', #259, 1000.000000000000000 ) ;
#199 = ORIENTED_EDGE ( 'NONE', *, *, #190, .F. ) ;
#200 = CARTESIAN_POINT ( 'NONE',  ( 9.000000000000001800, -18.00000000000000400, 2.499999999999999600 ) ) ;
#201 = VERTEX_POINT ( 'NONE', #225 ) ;
#202 = APPLICATION_CONTEXT ( 'configuration controlled 3d designs of mechanical parts and assemblies' ) ;
#203 = DIRECTION ( 'NONE',  ( 0.0000000000000000000, -0.7071067811865474600, -0.7071067811865474600 ) ) ;
#204 = AXIS2_PLACEMENT_3D ( 'NONE', #347, #168, #113 ) ;
#205 = CALENDAR_DATE ( 2022, 5, 12 ) ;
#206 = APPROVAL_PERSON_ORGANIZATION ( #163, #109, #269 ) ;
#207 = FACE_OUTER_BOUND ( 'NONE', #129, .T. ) ;
#208 = ORIENTED_EDGE ( 'NONE', *, *, #309, .T. ) ;
#209 = EDGE_CURVE ( 'NONE', #155, #153, #164, .T. ) ;
#210 = LINE ( 'NONE', #195, #297 ) ;
#211 = VERTEX_POINT ( 'NONE', #15 ) ;
#212 = CC_DESIGN_PERSON_AND_ORGANIZATION_ASSIGNMENT ( #17, #349, ( #326 ) ) ;
#213 = LOCAL_TIME ( 6, 4, 45.00000000000000000, #63 ) ;
#214 = FACE_OUTER_BOUND ( 'NONE', #124, .T. ) ;
#215 = CARTESIAN_POINT ( 'NONE',  ( -9.000000000000001800, -18.00000000000000400, 2.500000000000000000 ) ) ;
#216 = CARTESIAN_POINT ( 'NONE',  ( 9.000000000000001800, 2.204364238465240200E-015, 0.0000000000000000000 ) ) ;
#217 = AXIS2_PLACEMENT_3D ( 'NONE', #265, #140, #365 ) ;
#218 = PRODUCT_DEFINITION_SHAPE ( 'NONE', 'NONE',  #326 ) ;
#219 = DIRECTION ( 'NONE',  ( 0.0000000000000000000, -1.224646799147350000E-016, -1.000000000000000000 ) ) ;
#220 = EDGE_LOOP ( 'NONE', ( #317, #167, #97, #102 ) ) ;
#221 = ADVANCED_FACE ( 'NONE', ( #64 ), #360, .T. ) ;
#222 = DIRECTION ( 'NONE',  ( 0.0000000000000000000, -1.000000000000000000, 1.224646799147350000E-016 ) ) ;
#223 = DATE_AND_TIME ( #339, #213 ) ;
#224 = FACE_OUTER_BOUND ( 'NONE', #135, .T. ) ;
#225 = CARTESIAN_POINT ( 'NONE',  ( 9.000000000000001800, -2.499999999999998700, 18.00000000000000000 ) ) ;
#226 =( GEOMETRIC_REPRESENTATION_CONTEXT ( 3 ) GLOBAL_UNCERTAINTY_ASSIGNED_CONTEXT ( ( #101 ) ) GLOBAL_UNIT_ASSIGNED_CONTEXT ( ( #319, #169, #170 ) ) REPRESENTATION_CONTEXT ( 'NONE', 'WORKASPACE' ) );
#227 = DIRECTION ( 'NONE',  ( 0.0000000000000000000, 1.224646799147350000E-016, 1.000000000000000000 ) ) ;
#228 = PERSON_AND_ORGANIZATION_ROLE ( 'design_owner' ) ;
#229 = FACE_OUTER_BOUND ( 'NONE', #89, .T. ) ;
#230 = VERTEX_POINT ( 'NONE', #136 ) ;
#231 = PLANE ( 'NONE',  #176 ) ;
#232 = EDGE_CURVE ( 'NONE', #211, #155, #11, .T. ) ;
#233 = DIRECTION ( 'NONE',  ( 1.000000000000000000, 0.0000000000000000000, 0.0000000000000000000 ) ) ;
#234 = LINE ( 'NONE', #157, #88 ) ;
#235 = CC_DESIGN_PERSON_AND_ORGANIZATION_ASSIGNMENT ( #325, #228, ( #367 ) ) ;
#236 = LOCAL_TIME ( 6, 4, 45.00000000000000000, #68 ) ;
#237 = VECTOR ( 'NONE', #41, 1000.000000000000000 ) ;
#238 = ORIENTED_EDGE ( 'NONE', *, *, #120, .F. ) ;
#239 = ORIENTED_EDGE ( 'NONE', *, *, #209, .T. ) ;
#240 = APPROVAL_PERSON_ORGANIZATION ( #355, #104, #175 ) ;
#241 = ORIENTED_EDGE ( 'NONE', *, *, #127, .F. ) ;
#242 = EDGE_CURVE ( 'NONE', #230, #38, #322, .T. ) ;
#243 = PLANE ( 'NONE',  #12 ) ;
#244 = CARTESIAN_POINT ( 'NONE',  ( -9.000000000000001800, -18.00000000000000400, 20.00000000000000000 ) ) ;
#245 = CC_DESIGN_PERSON_AND_ORGANIZATION_ASSIGNMENT ( #94, #351, ( #185 ) ) ;
#246 = LINE ( 'NONE', #216, #331 ) ;
#247 = VERTEX_POINT ( 'NONE', #336 ) ;
#248 = DIRECTION ( 'NONE',  ( 0.0000000000000000000, -1.000000000000000000, -0.0000000000000000000 ) ) ;
#249 = VERTEX_POINT ( 'NONE', #200 ) ;
#250 = ADVANCED_FACE ( 'NONE', ( #224 ), #231, .F. ) ;
#251 = DIRECTION ( 'NONE',  ( 0.0000000000000000000, -1.224646799147350000E-016, -1.000000000000000000 ) ) ;
#252 = AXIS2_PLACEMENT_3D ( 'NONE', #128, #126, #219 ) ;
#253 = ORIENTED_EDGE ( 'NONE', *, *, #20, .T. ) ;
#254 = ORIENTED_EDGE ( 'NONE', *, *, #315, .F. ) ;
#255 = DIRECTION ( 'NONE',  ( -1.000000000000000000, -0.0000000000000000000, -0.0000000000000000000 ) ) ;
#256 = CARTESIAN_POINT ( 'NONE',  ( -9.000000000000001800, 0.0000000000000000000, 0.0000000000000000000 ) ) ;
#257 = APPROVAL_DATE_TIME ( #330, #104 ) ;
#258 = LINE ( 'NONE', #335, #286 ) ;
#259 = DIRECTION ( 'NONE',  ( -0.0000000000000000000, -0.0000000000000000000, 1.000000000000000000 ) ) ;
#260 = AXIS2_PLACEMENT_3D ( 'NONE', #40, #328, #99 ) ;
#261 = ORIENTED_EDGE ( 'NONE', *, *, #242, .T. ) ;
#262 = VERTEX_POINT ( 'NONE', #108 ) ;
#263 = PLANE ( 'NONE',  #204 ) ;
#264 = DIRECTION ( 'NONE',  ( -0.0000000000000000000, -0.0000000000000000000, 1.000000000000000000 ) ) ;
#265 = CARTESIAN_POINT ( 'NONE',  ( 0.0000000000000000000, 0.0000000000000000000, 0.0000000000000000000 ) ) ;
#266 = EDGE_LOOP ( 'NONE', ( #287, #261, #274, #241 ) ) ;
#267 = CARTESIAN_POINT ( 'NONE',  ( -9.000000000000001800, 0.0000000000000000000, 2.449293598294710100E-015 ) ) ;
#268 = EDGE_CURVE ( 'NONE', #38, #13, #173, .T. ) ;
#269 = APPROVAL_ROLE ( '' ) ;
#270 = VECTOR ( 'NONE', #248, 1000.000000000000000 ) ;
#271 = ORIENTED_EDGE ( 'NONE', *, *, #145, .F. ) ;
#272 = DATE_TIME_ROLE ( 'creation_date' ) ;
#273 = VERTEX_POINT ( 'NONE', #80 ) ;
#274 = ORIENTED_EDGE ( 'NONE', *, *, #268, .T. ) ;
#275 = PRODUCT_RELATED_PRODUCT_CATEGORY ( 'detail', '', ( #367 ) ) ;
#276 = COORDINATED_UNIVERSAL_TIME_OFFSET ( 8, 0, .BEHIND. ) ;
#277 = VECTOR ( 'NONE', #203, 1000.000000000000100 ) ;
#278 = CARTESIAN_POINT ( 'NONE',  ( -9.000000000000001800, -4.742640687118999700, 20.00000000000000000 ) ) ;
#279 = CC_DESIGN_DATE_AND_TIME_ASSIGNMENT ( #223, #272, ( #326 ) ) ;
#280 = DIRECTION ( 'NONE',  ( 0.0000000000000000000, -1.000000000000000000, 1.224646799147350000E-016 ) ) ;
#281 = ORIENTED_EDGE ( 'NONE', *, *, #33, .F. ) ;
#282 = PLANE ( 'NONE',  #292 ) ;
#283 = PLANE ( 'NONE',  #338 ) ;
#284 = COORDINATED_UNIVERSAL_TIME_OFFSET ( 8, 0, .BEHIND. ) ;
#285 = EDGE_CURVE ( 'NONE', #262, #230, #134, .T. ) ;
#286 = VECTOR ( 'NONE', #193, 1000.000000000000000 ) ;
#287 = ORIENTED_EDGE ( 'NONE', *, *, #141, .T. ) ;
#288 = CARTESIAN_POINT ( 'NONE',  ( -9.000000000000001800, 2.449293598294700200E-015, 20.00000000000000000 ) ) ;
#289 = DIRECTION ( 'NONE',  ( 1.000000000000000000, 0.0000000000000000000, 0.0000000000000000000 ) ) ;
#290 = DIRECTION ( 'NONE',  ( 1.000000000000000000, 0.0000000000000000000, 0.0000000000000000000 ) ) ;
#291 = DIRECTION ( 'NONE',  ( 1.000000000000000000, -0.0000000000000000000, 0.0000000000000000000 ) ) ;
#292 = AXIS2_PLACEMENT_3D ( 'NONE', #75, #44, #227 ) ;
#293 = CARTESIAN_POINT ( 'NONE',  ( -9.000000000000001800, 2.204364238465240200E-015, 18.00000000000000400 ) ) ;
#294 = FACE_OUTER_BOUND ( 'NONE', #1, .T. ) ;
#295 = DATE_TIME_ROLE ( 'classification_date' ) ;
#296 = CC_DESIGN_APPROVAL ( #104, ( #346 ) ) ;
#297 = VECTOR ( 'NONE', #255, 1000.000000000000000 ) ;
#298 = ORIENTED_EDGE ( 'NONE', *, *, #141, .F. ) ;
#299 = VECTOR ( 'NONE', #318, 1000.000000000000000 ) ;
#300 = EDGE_CURVE ( 'NONE', #201, #273, #7, .T. ) ;
#301 = CARTESIAN_POINT ( 'NONE',  ( -9.000000000000001800, 0.0000000000000000000, 20.00000000000000000 ) ) ;
#302 = LINE ( 'NONE', #306, #179 ) ;
#303 = ADVANCED_FACE ( 'NONE', ( #207 ), #263, .F. ) ;
#304 = DIRECTION ( 'NONE',  ( 0.0000000000000000000, -1.000000000000000000, 1.224646799147350000E-016 ) ) ;
#305 = MANIFOLD_SOLID_BREP ( 'Volumenk\X\F6rper1', #112 ) ;
#306 = CARTESIAN_POINT ( 'NONE',  ( 9.000000000000001800, -20.00000000000000000, 0.0000000000000000000 ) ) ;
#307 = ADVANCED_FACE ( 'NONE', ( #294 ), #24, .T. ) ;
#308 = DIRECTION ( 'NONE',  ( 0.0000000000000000000, 0.7071067811865470200, -0.7071067811865480200 ) ) ;
#309 = EDGE_CURVE ( 'NONE', #153, #327, #364, .T. ) ;
#310 = CALENDAR_DATE ( 2022, 5, 12 ) ;
#311 = LINE ( 'NONE', #43, #198 ) ;
#312 = ORIENTED_EDGE ( 'NONE', *, *, #58, .F. ) ;
#313 = CC_DESIGN_DATE_AND_TIME_ASSIGNMENT ( #9, #295, ( #185 ) ) ;
#314 = CARTESIAN_POINT ( 'NONE',  ( 9.000000000000001800, -20.00000000000000000, 4.742640687118999700 ) ) ;
#315 = EDGE_CURVE ( 'NONE', #343, #211, #69, .T. ) ;
#316 = VECTOR ( 'NONE', #233, 1000.000000000000000 ) ;
#317 = ORIENTED_EDGE ( 'NONE', *, *, #232, .T. ) ;
#318 = DIRECTION ( 'NONE',  ( -0.0000000000000000000, 1.000000000000000000, 0.0000000000000000000 ) ) ;
#319 =( LENGTH_UNIT ( ) NAMED_UNIT ( * ) SI_UNIT ( .MILLI., .METRE. ) );
#320 = CARTESIAN_POINT ( 'NONE',  ( 9.000000000000001800, 0.0000000000000000000, 0.0000000000000000000 ) ) ;
#321 = DIRECTION ( 'NONE',  ( 0.0000000000000000000, -1.000000000000000000, 1.224646799147350000E-016 ) ) ;
#322 = LINE ( 'NONE', #267, #299 ) ;
#323 = ORIENTED_EDGE ( 'NONE', *, *, #51, .T. ) ;
#324 = FACE_OUTER_BOUND ( 'NONE', #111, .T. ) ;
#325 = PERSON_AND_ORGANIZATION ( #114, #26 ) ;
#326 = PRODUCT_DEFINITION ( 'UNKNOWN', '', #346, #66 ) ;
#327 = VERTEX_POINT ( 'NONE', #54 ) ;
#328 = DIRECTION ( 'NONE',  ( 0.0000000000000000000, -1.224646799147350000E-016, -1.000000000000000000 ) ) ;
#329 = CARTESIAN_POINT ( 'NONE',  ( -9.000000000000001800, -18.00000000000000400, 2.643099596752068700E-015 ) ) ;
#330 = DATE_AND_TIME ( #115, #123 ) ;
#331 = VECTOR ( 'NONE', #359, 1000.000000000000000 ) ;
#332 = ORIENTED_EDGE ( 'NONE', *, *, #362, .T. ) ;
#333 = DIRECTION ( 'NONE',  ( 0.0000000000000000000, -1.224646799147350000E-016, -1.000000000000000000 ) ) ;
#334 = CARTESIAN_POINT ( 'NONE',  ( -9.000000000000001800, 2.204364238465240200E-015, 18.00000000000000400 ) ) ;
#335 = CARTESIAN_POINT ( 'NONE',  ( -9.000000000000001800, -20.00000000000000000, 2.449293598294710100E-015 ) ) ;
#336 = CARTESIAN_POINT ( 'NONE',  ( -9.000000000000001800, -18.00000000000000400, 2.499999999999999600 ) ) ;
#337 = CARTESIAN_POINT ( 'NONE',  ( -9.000000000000001800, -4.742640687118997900, 19.99999999999999600 ) ) ;
#338 = AXIS2_PLACEMENT_3D ( 'NONE', #256, #289, #196 ) ;
#339 = CALENDAR_DATE ( 2022, 5, 12 ) ;
#340 = ORIENTED_EDGE ( 'NONE', *, *, #6, .F. ) ;
#341 = DIRECTION ( 'NONE',  ( -0.0000000000000000000, 1.000000000000000000, -1.224646799147350000E-016 ) ) ;
#342 = CARTESIAN_POINT ( 'NONE',  ( -8.000000000000000000, -18.00000000000000400, 2.500000000000000000 ) ) ;
#343 = VERTEX_POINT ( 'NONE', #345 ) ;
#344 = ADVANCED_BREP_SHAPE_REPRESENTATION ( '462548843_c_1', ( #305, #217 ), #226 ) ;
#345 = CARTESIAN_POINT ( 'NONE',  ( -9.000000000000001800, 2.204364238465237800E-015, 18.00000000000000400 ) ) ;
#346 = PRODUCT_DEFINITION_FORMATION_WITH_SPECIFIED_SOURCE ( 'ANY', '', #367, .NOT_KNOWN. ) ;
#347 = CARTESIAN_POINT ( 'NONE',  ( -8.000000000000000000, -18.00000000000000400, 2.500000000000000000 ) ) ;
#348 = LOCAL_TIME ( 6, 4, 45.00000000000000000, #369 ) ;
#349 = PERSON_AND_ORGANIZATION_ROLE ( 'creator' ) ;
#350 = LINE ( 'NONE', #301, #270 ) ;
#351 = PERSON_AND_ORGANIZATION_ROLE ( 'classification_officer' ) ;
#352 = CC_DESIGN_PERSON_AND_ORGANIZATION_ASSIGNMENT ( #158, #178, ( #346 ) ) ;
#353 = SECURITY_CLASSIFICATION_LEVEL ( 'unclassified' ) ;
#354 = ORIENTED_EDGE ( 'NONE', *, *, #20, .F. ) ;
#355 = PERSON_AND_ORGANIZATION ( #114, #26 ) ;
#356 = VECTOR ( 'NONE', #333, 1000.000000000000000 ) ;
#357 = LINE ( 'NONE', #72, #21 ) ;
#358 = ORIENTED_EDGE ( 'NONE', *, *, #6, .T. ) ;
#359 = DIRECTION ( 'NONE',  ( -0.0000000000000000000, -0.0000000000000000000, 1.000000000000000000 ) ) ;
#360 = PLANE ( 'NONE',  #151 ) ;
#361 = DIRECTION ( 'NONE',  ( -1.000000000000000000, -0.0000000000000000000, -0.0000000000000000000 ) ) ;
#362 = EDGE_CURVE ( 'NONE', #247, #249, #363, .T. ) ;
#363 = LINE ( 'NONE', #342, #197 ) ;
#364 = LINE ( 'NONE', #368, #277 ) ;
#365 = DIRECTION ( 'NONE',  ( 1.000000000000000000, 0.0000000000000000000, 0.0000000000000000000 ) ) ;
#366 = ORIENTED_EDGE ( 'NONE', *, *, #242, .F. ) ;
#367 = PRODUCT ( '462548843_c_1', '462548843_c_1', '', ( #23 ) ) ;
#368 = CARTESIAN_POINT ( 'NONE',  ( 9.000000000000001800, -4.742640687118999700, 20.00000000000000000 ) ) ;
#369 = COORDINATED_UNIVERSAL_TIME_OFFSET ( 8, 0, .BEHIND. ) ;
ENDSEC;
END-ISO-10303-21;
